Page 1 sur 1
  • Vous ne pouvez pas créer de sujet
  • Vous ne pouvez pas répondre au sujet
  • Partager ce sujet

Gamme orientale géant !

#1 Utilisateur non-connecté   new john Icône

  • Commence les barrés
  • PipPip
  • Groupe : Membre
  • Messages : 35
  • Inscrit : 21-December 07
  • Gender:Male

Icône de message  Posté 01 July 2009 - 19:07

Salut !

Voilà qqes années que je suis des cours de guitare particuliers et je viens d'apprendre la gamme orientale, je sais pas si vous la connaissez, maiis elle absolument géniale ! :guitar_player:

LA voila :smartass:

--------------------------0-1----------------------
---------------------2-3---------------------------
--------------0-2-3--------------------------------
----------2-3--------------------------------------
------4-5------------------------------------------
--5-6----------------------------------------------
0

#2 Utilisateur non-connecté   Gok Icône

  • Premières répets
  • PipPipPipPipPip
  • Groupe : Membre
  • Messages : 349
  • Inscrit : 21-May 06
  • Gender:Male
  • Location:Lille

Posté 01 July 2009 - 21:22

Voir le messagenew john, le Jul 1 2009, 20:07, a dit :

LA voila :smartass:


Mmmmm la subtilité ! :yahoo:
- Réalise enregistrement/mixage de maquettes pour groupes dans la région Lilloise.
0

#3 Guest_tizeph_*

  • Groupe : Invité

Posté 02 July 2009 - 21:12

Voir le messagenew john, le Jul 1 2009, 20:07, a dit :

Salut !

Voilà qqes années que je suis des cours de guitare particuliers et je viens d'apprendre la gamme orientale, je sais pas si vous la connaissez, maiis elle absolument géniale ! :guitar_player:

LA voila :smartass:

--------------------------0-1----------------------
---------------------2-3---------------------------
--------------0-2-3--------------------------------
----------2-3--------------------------------------
------4-5------------------------------------------
--5-6----------------------------------------------



En voici une autre (Gamme exotique)

Gamme Indienne mineure :

E |-----------------------------5-------------------------------------|
B |-----------------------5-6-9---9-6-5-------------------------------|
G |-------------------5-8---------------8-5---------------------------|
D |-------------6-7-8-----------------------8-7-6---------------------|
A |-------6-7-8-----------------------------------8-7-6---------------|
E |-5-6-8------------------------------------------------8-6-5~-------|
0

#4 Utilisateur non-connecté   new john Icône

  • Commence les barrés
  • PipPip
  • Groupe : Membre
  • Messages : 35
  • Inscrit : 21-December 07
  • Gender:Male

Posté 04 July 2009 - 11:03

stylé !
0

#5 Guest_tizeph_*

  • Groupe : Invité

Posté 04 July 2009 - 11:47

Avec le son c'est encore mieux Gamme :guitar_player:
0

#6 Utilisateur non-connecté   new john Icône

  • Commence les barrés
  • PipPip
  • Groupe : Membre
  • Messages : 35
  • Inscrit : 21-December 07
  • Gender:Male

Posté 07 July 2009 - 14:48

javoue !
0

#7 Utilisateur non-connecté   Bewitched Icône

  • Café Concert
  • PipPipPipPipPipPip
  • Groupe : Membre
  • Messages : 707
  • Inscrit : 13-May 06
  • Gender:Male
  • Location:Strasbourg

Posté 08 July 2009 - 13:15

La première gamme tablée c'est la super phrygienne, cinquième gamme issue du mineur harmonique. La seule note qui change avec la phrygienne du mode grec est la tierce qui est ici majeure.

La seule gamme indienne que je connais (ni mineure, ni majeure enfin la tierce est majeure mais la septième est mineure) est (en partant de la tonique de La) La Si Do# Ré Mi Fa Sol. Seconde et tierce majeure, sixte et septième mineure.
Pour du metal à la fois trash et mélodique ainsi que des solos à rallonge, venez voir ici : www.myspace.com/bloodypridefr
0

Page 1 sur 1
  • Vous ne pouvez pas créer de sujet
  • Vous ne pouvez pas répondre au sujet
  • Partager ce sujet

2 utilisateur(s) dans ce sujet
0 membre(s), 2 invité(s), 0 utilisateur(s) anonyme(s)

  1. Google