Page 1 sur 1
  • Vous ne pouvez pas créer de sujet
  • Vous ne pouvez pas répondre au sujet
  • Partager ce sujet

Les differents turnaround en blues

#1 Utilisateur non-connecté   xxpunkmetalxx Icône

  • Premières compos
  • PipPipPipPip
  • Groupe : Membre
  • Messages : 139
  • Inscrit : 17-September 08
  • Gender:Male
  • Location:devant mon pc avec ma gratte a la recherche de nouveaux morceaux

Posté 02 December 2009 - 19:36

Salut a tous !
En ce moment j'essaye de faire des impro en blues et j'aimerai savoir quels sont les différents turnaround existant dans différentes tonalité en restant dans l'accordage standard. Si vous pourriez m'en citez quelques-uns avec une tablature join ce serais sympa =).
Merci d'avance
Tchouss les gratteux :guitar_player:
0

#2 Utilisateur non-connecté   Bewitched Icône

  • Café Concert
  • PipPipPipPipPipPip
  • Groupe : Membre
  • Messages : 707
  • Inscrit : 13-May 06
  • Gender:Male
  • Location:Strasbourg

Posté 04 December 2009 - 14:28

Bah je comprends pas ! Achète et écoute du blues mon vieux ! C'est le meilleur moyen de comprendre comment ça marche et en sélectionnant les turnarounds que tu préfères, tu crées ta propre identité :)

Ecoute du SRV, BB King, un peu de Gary Moore puisque t'as l'air de préférer le hard blues (selon ton pseudo), Johnny Winter etc. Sinon ben achète toi un Guitar Part ou autre magazine, ils sont des centaines de numéros à proposer chacun des dizaines de turnarounds :)

PS : je sais que BB King n'est pas hard bluesman mais il est incontournable dans ce milieu-là, c'est un millième de ce qui peut exister comme bons bluesmen.
Pour du metal à la fois trash et mélodique ainsi que des solos à rallonge, venez voir ici : www.myspace.com/bloodypridefr
0

#3 Utilisateur non-connecté   Mikka Grytviken Icône

  • Premières répets
  • PipPipPipPipPip
  • Groupe : Vainqueur de Battle
  • Messages : 324
  • Inscrit : 15-June 09
  • Gender:Male
  • Interests:Musique et electronique

Posté 04 December 2009 - 22:03

+1

Albert King, Freddy King et BB King ... tout est là !

:rolleyes:
0

#4 Utilisateur non-connecté   martin_guitariste Icône

  • Apprenti guitariste
  • Pip
  • Groupe : Membre
  • Messages : 23
  • Inscrit : 07-January 10
  • Gender:Male
  • Location:grenoble
  • Interests:Guitare, jazz, improvisation

Icône de message  Posté 07 January 2010 - 13:35

Mon turnaround préféré (sur un blues en Sol):



--------7-7-7--6-6-6--5-5-5-|-3--------------
--------6-6-6--5-5-5--4-4-4-|-3-----4--5-----
--------7-7-7--6-6-6--5-5-5-|-4-----4--5-----
----------------------------|-------3--4-----
----------------------------|-------4--5-----
----------------------------|----------------


:rolleyes:
GUITARE::IMPROVISATION -> le site de l'improvisation à la guitare
0

#5 Guest_tizeph_*

  • Groupe : Invité

Posté 07 January 2010 - 14:23

Un autre en Mi


----------4--------3-------2------0-----------------------
-----------------------------------------------------------
--3->4-----4--3-----3--2----1----------------2----------
------------------------------------------------1----------
--------------------------------------0--1--2--2-------2--
----------------------------------------------------3b--0--

Ou :

----------4--------3-------2------0----3---2------------
----------------------------------------3---0------------
--3->4-----4--3-----3--2----1--------3---2------------
----------------------------------------2---1------------
----------------------------------------3---2------------
----------------------------------------------------------

en LA


----------9--------8-------7------5-------------------------
---------------------------------------------------5-----------
--7->9-----9--8-----8--7----6-------------------7----------
---------------------------------------------------6----------
----------------------------------------5--6--7-- 7----7-----
--------------------------------------------------------5-----

ou


----------9--------8-------7------5-------5-----5-----------
-------------------------------------------7-----8-----------
--7->9-----9--8-----8--7----6-----------6-----6-----------
-------------------------------------------5-----5-----------
-------------------------------------------------------------
-------------------------------------------------------------

Ceci sont des exemples simples ils en existent des centaines pas le temps de les retranscrirent.
Vas voir ici :Tournaround
:guitar_player: :guitar_player: :guitar_player:
0

Page 1 sur 1
  • Vous ne pouvez pas créer de sujet
  • Vous ne pouvez pas répondre au sujet
  • Partager ce sujet

2 utilisateur(s) dans ce sujet
0 membre(s), 2 invité(s), 0 utilisateur(s) anonyme(s)